ISO-10303-21;
HEADER;
FILE_DESCRIPTION (( 'STEP AP203' ),
    '1' );
FILE_NAME ('QM-AAQWP-10-450-650-M.STEP',
    '2021-01-05T02:41:39',
    ( '' ),
    ( '' ),
    'SwSTEP 2.0',
    'SolidWorks 2020',
    '' );
FILE_SCHEMA (( 'CONFIG_CONTROL_DESIGN' ));
ENDSEC;

DATA;
#1 = AXIS2_PLACEMENT_3D ( 'NONE', #18, #148, #104 ) ;
#2 = CARTESIAN_POINT ( 'NONE',  ( 0.5000000000000004441, 0.000000000000000000, 0.000000000000000000 ) ) ;
#3 = DIRECTION ( 'NONE',  ( -1.000000000000000000, -0.000000000000000000, -0.000000000000000000 ) ) ;
#4 = ADVANCED_FACE ( 'NONE', ( #45 ), #177, .T. ) ;
#5 = APPLICATION_PROTOCOL_DEFINITION ( 'international standard', 'config_control_design', 1994, #102 ) ;
#6 = LINE ( 'NONE', #315, #245 ) ;
#7 = CARTESIAN_POINT ( 'NONE',  ( -1.614212418857619014, 0.000000000000000000, 0.000000000000000000 ) ) ;
#8 = PRODUCT ( 'QM-AAQWP-10-450-650-M', 'QM-AAQWP-10-450-650-M', '', ( #276 ) ) ;
#9 = CIRCLE ( 'NONE', #237, 5.000000000000000000 ) ;
#10 = DIRECTION ( 'NONE',  ( 0.000000000000000000, 0.000000000000000000, 1.000000000000000000 ) ) ;
#11 = CARTESIAN_POINT ( 'NONE',  ( 3.000000000000000000, 6.123233995736768255E-16, -5.000000000000001776 ) ) ;
#12 = VERTEX_POINT ( 'NONE', #134 ) ;
#13 = DIRECTION ( 'NONE',  ( 0.000000000000000000, 0.000000000000000000, 1.000000000000000000 ) ) ;
#14 = CIRCLE ( 'NONE', #225, 5.000000000000000000 ) ;
#15 = ADVANCED_FACE ( 'NONE', ( #108 ), #186, .F. ) ;
#16 = COORDINATED_UNIVERSAL_TIME_OFFSET ( 8, 0, .AHEAD. ) ;
#17 = DIRECTION ( 'NONE',  ( 1.000000000000000000, 0.000000000000000000, 0.000000000000000000 ) ) ;
#18 = CARTESIAN_POINT ( 'NONE',  ( -1.614212418857619014, 0.000000000000000000, 0.000000000000000000 ) ) ;
#19 = AXIS2_PLACEMENT_3D ( 'NONE', #212, #91, #310 ) ;
#20 = SHAPE_DEFINITION_REPRESENTATION ( #194, #151 ) ;
#21 = EDGE_CURVE ( 'NONE', #209, #65, #14, .T. ) ;
#22 = CC_DESIGN_PERSON_AND_ORGANIZATION_ASSIGNMENT ( #224, #328, ( #162 ) ) ;
#23 = LOCAL_TIME ( 10, 41, 39.00000000000000000, #144 ) ;
#24 = EDGE_LOOP ( 'NONE', ( #206, #127, #70, #250 ) ) ;
#25 = CC_DESIGN_APPROVAL ( #267, ( #75 ) ) ;
#26 = UNCERTAINTY_MEASURE_WITH_UNIT (LENGTH_MEASURE( 1.000000000000000082E-05 ), #161, 'distance_accuracy_value', 'NONE');
#27 = DIRECTION ( 'NONE',  ( 0.000000000000000000, 0.000000000000000000, 1.000000000000000000 ) ) ;
#28 = DIRECTION ( 'NONE',  ( 0.000000000000000000, 0.000000000000000000, 1.000000000000000000 ) ) ;
#29 = CARTESIAN_POINT ( 'NONE',  ( -3.000000000000000000, 5.000000000000000000, 0.000000000000000000 ) ) ;
#30 = CARTESIAN_POINT ( 'NONE',  ( -3.000000000000000000, 0.000000000000000000, 0.000000000000000000 ) ) ;
#31 = CARTESIAN_POINT ( 'NONE',  ( -1.614212418857619014, 0.000000000000000000, 0.000000000000000000 ) ) ;
#32 = CARTESIAN_POINT ( 'NONE',  ( 0.5000000000000004441, 0.000000000000000000, 0.000000000000000000 ) ) ;
#33 = DIRECTION ( 'NONE',  ( -0.000000000000000000, 0.000000000000000000, 1.000000000000000000 ) ) ;
#34 = EDGE_LOOP ( 'NONE', ( #332, #307 ) ) ;
#35 = AXIS2_PLACEMENT_3D ( 'NONE', #285, #187, #10 ) ;
#36 = CYLINDRICAL_SURFACE ( 'NONE', #39, 12.69999999999999929 ) ;
#37 = DIRECTION ( 'NONE',  ( -1.000000000000000000, -0.000000000000000000, -0.000000000000000000 ) ) ;
#38 = ORIENTED_EDGE ( 'NONE', *, *, #243, .T. ) ;
#39 = AXIS2_PLACEMENT_3D ( 'NONE', #31, #239, #92 ) ;
#40 = PERSON_AND_ORGANIZATION ( #175, #204 ) ;
#41 = DATE_TIME_ROLE ( 'classification_date' ) ;
#42 = EDGE_CURVE ( 'NONE', #12, #182, #113, .T. ) ;
#43 = DATE_TIME_ROLE ( 'creation_date' ) ;
#44 = DATE_AND_TIME ( #331, #89 ) ;
#45 = FACE_OUTER_BOUND ( 'NONE', #257, .T. ) ;
#46 = PERSON_AND_ORGANIZATION ( #175, #204 ) ;
#47 = VERTEX_POINT ( 'NONE', #81 ) ;
#48 = VECTOR ( 'NONE', #217, 1000.000000000000000 ) ;
#49 = PRODUCT_DEFINITION_FORMATION_WITH_SPECIFIED_SOURCE ( 'ANY', '', #8, .NOT_KNOWN. ) ;
#50 = ADVANCED_FACE ( 'NONE', ( #135, #235 ), #166, .F. ) ;
#51 = ORIENTED_EDGE ( 'NONE', *, *, #213, .T. ) ;
#52 = DIRECTION ( 'NONE',  ( 1.000000000000000000, 0.000000000000000000, 0.000000000000000000 ) ) ;
#53 = VECTOR ( 'NONE', #141, 1000.000000000000000 ) ;
#54 = CARTESIAN_POINT ( 'NONE',  ( -1.614212418857619014, 6.123233995736767268E-16, -5.000000000000000888 ) ) ;
#55 = EDGE_CURVE ( 'NONE', #295, #77, #9, .T. ) ;
#56 = FACE_OUTER_BOUND ( 'NONE', #165, .T. ) ;
#57 = DIRECTION ( 'NONE',  ( -1.000000000000000000, -0.000000000000000000, -0.000000000000000000 ) ) ;
#58 = AXIS2_PLACEMENT_3D ( 'NONE', #2, #318, #195 ) ;
#59 = CARTESIAN_POINT ( 'NONE',  ( -1.614212418857619014, 0.000000000000000000, 0.000000000000000000 ) ) ;
#60 = AXIS2_PLACEMENT_3D ( 'NONE', #289, #164, #320 ) ;
#61 = CARTESIAN_POINT ( 'NONE',  ( -3.000000000000000000, 0.000000000000000000, 0.000000000000000000 ) ) ;
#62 = LINE ( 'NONE', #54, #333 ) ;
#63 = CARTESIAN_POINT ( 'NONE',  ( -3.000000000000000000, 6.123233995736766282E-16, -5.000000000000000000 ) ) ;
#64 = LINE ( 'NONE', #316, #53 ) ;
#65 = VERTEX_POINT ( 'NONE', #241 ) ;
#66 = DATE_AND_TIME ( #296, #330 ) ;
#67 = VECTOR ( 'NONE', #319, 1000.000000000000000 ) ;
#68 = EDGE_CURVE ( 'NONE', #150, #209, #6, .T. ) ;
#69 = APPROVAL_DATE_TIME ( #122, #309 ) ;
#70 = ORIENTED_EDGE ( 'NONE', *, *, #21, .T. ) ;
#71 = APPROVAL_DATE_TIME ( #323, #267 ) ;
#72 = EDGE_LOOP ( 'NONE', ( #255, #274 ) ) ;
#73 = ORIENTED_EDGE ( 'NONE', *, *, #314, .F. ) ;
#74 = CIRCLE ( 'NONE', #221, 5.000000000000000888 ) ;
#75 = SECURITY_CLASSIFICATION ( '', '', #327 ) ;
#76 = EDGE_CURVE ( 'NONE', #198, #182, #95, .T. ) ;
#77 = VERTEX_POINT ( 'NONE', #236 ) ;
#78 = ORIENTED_EDGE ( 'NONE', *, *, #281, .F. ) ;
#79 = ADVANCED_FACE ( 'NONE', ( #56 ), #115, .F. ) ;
#80 = EDGE_CURVE ( 'NONE', #65, #209, #170, .T. ) ;
#81 = CARTESIAN_POINT ( 'NONE',  ( -0.5000000000000002220, 0.000000000000000000, 5.000000000000000888 ) ) ;
#82 = AXIS2_PLACEMENT_3D ( 'NONE', #61, #192, #167 ) ;
#83 = CARTESIAN_POINT ( 'NONE',  ( 3.000000000000000000, 0.000000000000000000, 12.69999999999999929 ) ) ;
#84 =( NAMED_UNIT ( * ) SI_UNIT ( $, .STERADIAN. ) SOLID_ANGLE_UNIT ( ) );
#85 = DIRECTION ( 'NONE',  ( -1.000000000000000000, -0.000000000000000000, -0.000000000000000000 ) ) ;
#86 = DIRECTION ( 'NONE',  ( 0.000000000000000000, 0.000000000000000000, -1.000000000000000000 ) ) ;
#87 = DIRECTION ( 'NONE',  ( -1.000000000000000000, -0.000000000000000000, -0.000000000000000000 ) ) ;
#88 = CARTESIAN_POINT ( 'NONE',  ( -0.5000000000000002220, 0.000000000000000000, 0.000000000000000000 ) ) ;
#89 = LOCAL_TIME ( 10, 41, 39.00000000000000000, #100 ) ;
#90 = ORIENTED_EDGE ( 'NONE', *, *, #130, .F. ) ;
#91 = DIRECTION ( 'NONE',  ( -1.000000000000000000, -0.000000000000000000, -0.000000000000000000 ) ) ;
#92 = DIRECTION ( 'NONE',  ( 0.000000000000000000, 0.000000000000000000, 1.000000000000000000 ) ) ;
#93 = ORIENTED_EDGE ( 'NONE', *, *, #326, .T. ) ;
#94 = DIRECTION ( 'NONE',  ( -1.000000000000000000, -0.000000000000000000, -0.000000000000000000 ) ) ;
#95 = CIRCLE ( 'NONE', #35, 12.69999999999999929 ) ;
#96 = EDGE_CURVE ( 'NONE', #77, #295, #123, .T. ) ;
#97 = CALENDAR_DATE ( 2021, 5, 1 ) ;
#98 = ORIENTED_EDGE ( 'NONE', *, *, #42, .T. ) ;
#99 =( GEOMETRIC_REPRESENTATION_CONTEXT ( 3 ) GLOBAL_UNCERTAINTY_ASSIGNED_CONTEXT ( ( #26 ) ) GLOBAL_UNIT_ASSIGNED_CONTEXT ( ( #161, #294, #84 ) ) REPRESENTATION_CONTEXT ( 'NONE', 'WORKASPACE' ) );
#100 = COORDINATED_UNIVERSAL_TIME_OFFSET ( 8, 0, .AHEAD. ) ;
#101 = EDGE_LOOP ( 'NONE', ( #171, #98, #125, #120 ) ) ;
#102 = APPLICATION_CONTEXT ( 'configuration controlled 3d designs of mechanical parts and assemblies' ) ;
#103 = PERSON_AND_ORGANIZATION_ROLE ( 'design_supplier' ) ;
#104 = DIRECTION ( 'NONE',  ( 0.000000000000000000, 0.000000000000000000, 1.000000000000000000 ) ) ;
#105 = AXIS2_PLACEMENT_3D ( 'NONE', #7, #57, #169 ) ;
#106 = EDGE_LOOP ( 'NONE', ( #302, #305 ) ) ;
#107 = ORIENTED_EDGE ( 'NONE', *, *, #42, .F. ) ;
#108 = FACE_OUTER_BOUND ( 'NONE', #299, .T. ) ;
#109 = DIRECTION ( 'NONE',  ( -1.000000000000000000, -0.000000000000000000, -0.000000000000000000 ) ) ;
#110 = CC_DESIGN_SECURITY_CLASSIFICATION ( #75, ( #49 ) ) ;
#111 = DIRECTION ( 'NONE',  ( 0.000000000000000000, 0.000000000000000000, -1.000000000000000000 ) ) ;
#112 = EDGE_CURVE ( 'NONE', #132, #300, #207, .T. ) ;
#113 = LINE ( 'NONE', #140, #48 ) ;
#114 = CYLINDRICAL_SURFACE ( 'NONE', #172, 5.000000000000000888 ) ;
#115 = CYLINDRICAL_SURFACE ( 'NONE', #264, 5.000000000000000888 ) ;
#116 = AXIS2_PLACEMENT_3D ( 'NONE', #29, #240, #111 ) ;
#117 = CARTESIAN_POINT ( 'NONE',  ( 3.000000000000000000, 0.000000000000000000, 0.000000000000000000 ) ) ;
#118 = ORIENTED_EDGE ( 'NONE', *, *, #80, .T. ) ;
#119 = DIRECTION ( 'NONE',  ( 0.000000000000000000, 0.000000000000000000, -1.000000000000000000 ) ) ;
#120 = ORIENTED_EDGE ( 'NONE', *, *, #243, .F. ) ;
#121 = CC_DESIGN_DATE_AND_TIME_ASSIGNMENT ( #149, #41, ( #75 ) ) ;
#122 = DATE_AND_TIME ( #126, #234 ) ;
#123 = CIRCLE ( 'NONE', #58, 5.000000000000000000 ) ;
#124 = PERSON_AND_ORGANIZATION ( #175, #204 ) ;
#125 = ORIENTED_EDGE ( 'NONE', *, *, #76, .F. ) ;
#126 = CALENDAR_DATE ( 2021, 5, 1 ) ;
#127 = ORIENTED_EDGE ( 'NONE', *, *, #68, .T. ) ;
#128 = APPROVAL_ROLE ( '' ) ;
#129 = CC_DESIGN_APPROVAL ( #309, ( #162 ) ) ;
#130 = EDGE_CURVE ( 'NONE', #47, #150, #74, .T. ) ;
#131 = DESIGN_CONTEXT ( 'detailed design', #304, 'design' ) ;
#132 = VERTEX_POINT ( 'NONE', #270 ) ;
#133 = APPROVAL_PERSON_ORGANIZATION ( #124, #267, #128 ) ;
#134 = CARTESIAN_POINT ( 'NONE',  ( 3.000000000000000000, 1.555301434917138433E-15, -12.69999999999999929 ) ) ;
#135 = FACE_OUTER_BOUND ( 'NONE', #72, .T. ) ;
#136 = DIRECTION ( 'NONE',  ( -1.000000000000000000, -0.000000000000000000, -0.000000000000000000 ) ) ;
#137 = CARTESIAN_POINT ( 'NONE',  ( -1.614212418857619014, 0.000000000000000000, 0.000000000000000000 ) ) ;
#138 = EDGE_CURVE ( 'NONE', #300, #295, #62, .T. ) ;
#139 = FACE_OUTER_BOUND ( 'NONE', #176, .T. ) ;
#140 = CARTESIAN_POINT ( 'NONE',  ( -1.614212418857619014, 1.555301434917138433E-15, -12.69999999999999929 ) ) ;
#141 = DIRECTION ( 'NONE',  ( -1.000000000000000000, -0.000000000000000000, -0.000000000000000000 ) ) ;
#142 = LINE ( 'NONE', #293, #156 ) ;
#143 = CYLINDRICAL_SURFACE ( 'NONE', #105, 5.000000000000000888 ) ;
#144 = COORDINATED_UNIVERSAL_TIME_OFFSET ( 8, 0, .AHEAD. ) ;
#145 = ORIENTED_EDGE ( 'NONE', *, *, #21, .F. ) ;
#146 = APPROVAL_STATUS ( 'not_yet_approved' ) ;
#147 = PERSON_AND_ORGANIZATION ( #175, #204 ) ;
#148 = DIRECTION ( 'NONE',  ( -1.000000000000000000, -0.000000000000000000, -0.000000000000000000 ) ) ;
#149 = DATE_AND_TIME ( #280, #23 ) ;
#150 = VERTEX_POINT ( 'NONE', #260 ) ;
#151 = ADVANCED_BREP_SHAPE_REPRESENTATION ( 'QM-AAQWP-10-450-650-M', ( #183, #178 ), #99 ) ;
#152 = AXIS2_PLACEMENT_3D ( 'NONE', #59, #220, #157 ) ;
#153 = EDGE_CURVE ( 'NONE', #179, #12, #191, .T. ) ;
#154 = AXIS2_PLACEMENT_3D ( 'NONE', #335, #216, #210 ) ;
#155 = CC_DESIGN_PERSON_AND_ORGANIZATION_ASSIGNMENT ( #40, #254, ( #8 ) ) ;
#156 = VECTOR ( 'NONE', #168, 1000.000000000000000 ) ;
#157 = DIRECTION ( 'NONE',  ( 0.000000000000000000, 0.000000000000000000, 1.000000000000000000 ) ) ;
#158 = CIRCLE ( 'NONE', #185, 5.000000000000000888 ) ;
#159 = ORIENTED_EDGE ( 'NONE', *, *, #112, .F. ) ;
#160 = CARTESIAN_POINT ( 'NONE',  ( 3.000000000000000000, 0.000000000000000000, 0.000000000000000000 ) ) ;
#161 =( LENGTH_UNIT ( ) NAMED_UNIT ( * ) SI_UNIT ( .MILLI., .METRE. ) );
#162 = PRODUCT_DEFINITION ( 'UNKNOWN', '', #49, #131 ) ;
#163 = FACE_OUTER_BOUND ( 'NONE', #34, .T. ) ;
#164 = DIRECTION ( 'NONE',  ( -1.000000000000000000, -0.000000000000000000, -0.000000000000000000 ) ) ;
#165 = EDGE_LOOP ( 'NONE', ( #203, #159, #247, #219 ) ) ;
#166 = PLANE ( 'NONE',  #154 ) ;
#167 = DIRECTION ( 'NONE',  ( 0.000000000000000000, 0.000000000000000000, 1.000000000000000000 ) ) ;
#168 = DIRECTION ( 'NONE',  ( -1.000000000000000000, -0.000000000000000000, -0.000000000000000000 ) ) ;
#169 = DIRECTION ( 'NONE',  ( 0.000000000000000000, 0.000000000000000000, 1.000000000000000000 ) ) ;
#170 = CIRCLE ( 'NONE', #19, 5.000000000000000000 ) ;
#171 = ORIENTED_EDGE ( 'NONE', *, *, #153, .T. ) ;
#172 = AXIS2_PLACEMENT_3D ( 'NONE', #218, #37, #13 ) ;
#173 = PERSON_AND_ORGANIZATION ( #175, #204 ) ;
#174 = APPLICATION_PROTOCOL_DEFINITION ( 'international standard', 'config_control_design', 1994, #304 ) ;
#175 = PERSON ( 'UNSPECIFIED', 'UNSPECIFIED', 'UNSPECIFIED', ('UNSPECIFIED'), ('UNSPECIFIED'), ('UNSPECIFIED') ) ;
#176 = EDGE_LOOP ( 'NONE', ( #90, #78 ) ) ;
#177 = CYLINDRICAL_SURFACE ( 'NONE', #1, 12.69999999999999929 ) ;
#178 = AXIS2_PLACEMENT_3D ( 'NONE', #249, #229, #17 ) ;
#179 = VERTEX_POINT ( 'NONE', #83 ) ;
#180 = ADVANCED_FACE ( 'NONE', ( #287, #163 ), #263, .F. ) ;
#181 = CC_DESIGN_DATE_AND_TIME_ASSIGNMENT ( #44, #43, ( #162 ) ) ;
#182 = VERTEX_POINT ( 'NONE', #188 ) ;
#183 = MANIFOLD_SOLID_BREP ( 'Ðý×', #317 ) ;
#184 = CC_DESIGN_PERSON_AND_ORGANIZATION_ASSIGNMENT ( #230, #103, ( #49 ) ) ;
#185 = AXIS2_PLACEMENT_3D ( 'NONE', #88, #292, #119 ) ;
#186 = CYLINDRICAL_SURFACE ( 'NONE', #152, 5.000000000000000888 ) ;
#187 = DIRECTION ( 'NONE',  ( -1.000000000000000000, -0.000000000000000000, -0.000000000000000000 ) ) ;
#188 = CARTESIAN_POINT ( 'NONE',  ( -3.000000000000000000, 1.555301434917138433E-15, -12.69999999999999929 ) ) ;
#189 = PLANE ( 'NONE',  #303 ) ;
#190 = CARTESIAN_POINT ( 'NONE',  ( -0.5000000000000002220, 0.000000000000000000, 0.000000000000000000 ) ) ;
#191 = CIRCLE ( 'NONE', #259, 12.69999999999999929 ) ;
#192 = DIRECTION ( 'NONE',  ( -1.000000000000000000, -0.000000000000000000, -0.000000000000000000 ) ) ;
#193 = EDGE_LOOP ( 'NONE', ( #73, #202, #232, #269 ) ) ;
#194 = PRODUCT_DEFINITION_SHAPE ( 'NONE', 'NONE',  #162 ) ;
#195 = DIRECTION ( 'NONE',  ( 0.000000000000000000, 0.000000000000000000, 1.000000000000000000 ) ) ;
#196 = FACE_OUTER_BOUND ( 'NONE', #106, .T. ) ;
#197 = APPROVAL_ROLE ( '' ) ;
#198 = VERTEX_POINT ( 'NONE', #266 ) ;
#199 = ORIENTED_EDGE ( 'NONE', *, *, #112, .T. ) ;
#200 = ORIENTED_EDGE ( 'NONE', *, *, #80, .F. ) ;
#201 = APPROVAL_STATUS ( 'not_yet_approved' ) ;
#202 = ORIENTED_EDGE ( 'NONE', *, *, #138, .T. ) ;
#203 = ORIENTED_EDGE ( 'NONE', *, *, #138, .F. ) ;
#204 = ORGANIZATION ( 'UNSPECIFIED', 'UNSPECIFIED', '' ) ;
#205 = CC_DESIGN_PERSON_AND_ORGANIZATION_ASSIGNMENT ( #147, #301, ( #49 ) ) ;
#206 = ORIENTED_EDGE ( 'NONE', *, *, #130, .T. ) ;
#207 = CIRCLE ( 'NONE', #60, 5.000000000000001776 ) ;
#208 = PRODUCT_RELATED_PRODUCT_CATEGORY ( 'detail', '', ( #8 ) ) ;
#209 = VERTEX_POINT ( 'NONE', #63 ) ;
#210 = DIRECTION ( 'NONE',  ( -0.000000000000000000, 0.000000000000000000, 1.000000000000000000 ) ) ;
#211 = CIRCLE ( 'NONE', #231, 12.69999999999999929 ) ;
#212 = CARTESIAN_POINT ( 'NONE',  ( -3.000000000000000000, 0.000000000000000000, 0.000000000000000000 ) ) ;
#213 = EDGE_CURVE ( 'NONE', #47, #65, #142, .T. ) ;
#214 = ADVANCED_FACE ( 'NONE', ( #272 ), #36, .T. ) ;
#215 = CARTESIAN_POINT ( 'NONE',  ( 3.000000000000000000, 0.000000000000000000, 0.000000000000000000 ) ) ;
#216 = DIRECTION ( 'NONE',  ( -1.000000000000000000, 0.000000000000000000, -0.000000000000000000 ) ) ;
#217 = DIRECTION ( 'NONE',  ( -1.000000000000000000, -0.000000000000000000, -0.000000000000000000 ) ) ;
#218 = CARTESIAN_POINT ( 'NONE',  ( -1.614212418857619014, 0.000000000000000000, 0.000000000000000000 ) ) ;
#219 = ORIENTED_EDGE ( 'NONE', *, *, #96, .T. ) ;
#220 = DIRECTION ( 'NONE',  ( -1.000000000000000000, -0.000000000000000000, -0.000000000000000000 ) ) ;
#221 = AXIS2_PLACEMENT_3D ( 'NONE', #190, #52, #291 ) ;
#222 = DIRECTION ( 'NONE',  ( -1.000000000000000000, -0.000000000000000000, -0.000000000000000000 ) ) ;
#223 = PLANE ( 'NONE',  #227 ) ;
#224 = PERSON_AND_ORGANIZATION ( #175, #204 ) ;
#225 = AXIS2_PLACEMENT_3D ( 'NONE', #30, #136, #28 ) ;
#226 = EDGE_CURVE ( 'NONE', #182, #198, #297, .T. ) ;
#227 = AXIS2_PLACEMENT_3D ( 'NONE', #286, #322, #33 ) ;
#228 = ORIENTED_EDGE ( 'NONE', *, *, #281, .T. ) ;
#229 = DIRECTION ( 'NONE',  ( 0.000000000000000000, 0.000000000000000000, 1.000000000000000000 ) ) ;
#230 = PERSON_AND_ORGANIZATION ( #175, #204 ) ;
#231 = AXIS2_PLACEMENT_3D ( 'NONE', #215, #94, #290 ) ;
#232 = ORIENTED_EDGE ( 'NONE', *, *, #55, .T. ) ;
#233 = EDGE_CURVE ( 'NONE', #132, #77, #64, .T. ) ;
#234 = LOCAL_TIME ( 10, 41, 39.00000000000000000, #298 ) ;
#235 = FACE_BOUND ( 'NONE', #282, .T. ) ;
#236 = CARTESIAN_POINT ( 'NONE',  ( 0.5000000000000004441, 0.000000000000000000, 5.000000000000000000 ) ) ;
#237 = AXIS2_PLACEMENT_3D ( 'NONE', #32, #3, #244 ) ;
#238 = ADVANCED_FACE ( 'NONE', ( #139 ), #189, .F. ) ;
#239 = DIRECTION ( 'NONE',  ( -1.000000000000000000, -0.000000000000000000, -0.000000000000000000 ) ) ;
#240 = DIRECTION ( 'NONE',  ( 1.000000000000000000, 0.000000000000000000, 0.000000000000000000 ) ) ;
#241 = CARTESIAN_POINT ( 'NONE',  ( -3.000000000000000000, 0.000000000000000000, 5.000000000000000000 ) ) ;
#242 = CARTESIAN_POINT ( 'NONE',  ( -0.5000000000000002220, 5.000000000000000000, 0.000000000000000000 ) ) ;
#243 = EDGE_CURVE ( 'NONE', #179, #198, #246, .T. ) ;
#244 = DIRECTION ( 'NONE',  ( 0.000000000000000000, 0.000000000000000000, 1.000000000000000000 ) ) ;
#245 = VECTOR ( 'NONE', #87, 1000.000000000000000 ) ;
#246 = LINE ( 'NONE', #268, #67 ) ;
#247 = ORIENTED_EDGE ( 'NONE', *, *, #233, .T. ) ;
#248 = FACE_OUTER_BOUND ( 'NONE', #24, .T. ) ;
#249 = CARTESIAN_POINT ( 'NONE',  ( 0.000000000000000000, 0.000000000000000000, 0.000000000000000000 ) ) ;
#250 = ORIENTED_EDGE ( 'NONE', *, *, #213, .F. ) ;
#251 = APPROVAL_DATE_TIME ( #66, #261 ) ;
#252 = PERSON_AND_ORGANIZATION ( #175, #204 ) ;
#253 = ORIENTED_EDGE ( 'NONE', *, *, #68, .F. ) ;
#254 = PERSON_AND_ORGANIZATION_ROLE ( 'design_owner' ) ;
#255 = ORIENTED_EDGE ( 'NONE', *, *, #153, .F. ) ;
#256 = COORDINATED_UNIVERSAL_TIME_OFFSET ( 8, 0, .AHEAD. ) ;
#257 = EDGE_LOOP ( 'NONE', ( #107, #93, #38, #306 ) ) ;
#258 = LOCAL_TIME ( 10, 41, 39.00000000000000000, #256 ) ;
#259 = AXIS2_PLACEMENT_3D ( 'NONE', #160, #262, #312 ) ;
#260 = CARTESIAN_POINT ( 'NONE',  ( -0.5000000000000002220, 6.123233995736767268E-16, -5.000000000000000888 ) ) ;
#261 = APPROVAL ( #283, 'UNSPECIFIED' ) ;
#262 = DIRECTION ( 'NONE',  ( -1.000000000000000000, -0.000000000000000000, -0.000000000000000000 ) ) ;
#263 = PLANE ( 'NONE',  #116 ) ;
#264 = AXIS2_PLACEMENT_3D ( 'NONE', #137, #109, #27 ) ;
#265 = APPROVAL_PERSON_ORGANIZATION ( #252, #261, #197 ) ;
#266 = CARTESIAN_POINT ( 'NONE',  ( -3.000000000000000000, 0.000000000000000000, 12.69999999999999929 ) ) ;
#267 = APPROVAL ( #201, 'UNSPECIFIED' ) ;
#268 = CARTESIAN_POINT ( 'NONE',  ( -1.614212418857619014, 0.000000000000000000, 12.69999999999999929 ) ) ;
#269 = ORIENTED_EDGE ( 'NONE', *, *, #233, .F. ) ;
#270 = CARTESIAN_POINT ( 'NONE',  ( 3.000000000000000000, 0.000000000000000000, 5.000000000000001776 ) ) ;
#271 = DIRECTION ( 'NONE',  ( 0.000000000000000000, 0.000000000000000000, 1.000000000000000000 ) ) ;
#272 = FACE_OUTER_BOUND ( 'NONE', #101, .T. ) ;
#273 = FACE_OUTER_BOUND ( 'NONE', #193, .T. ) ;
#274 = ORIENTED_EDGE ( 'NONE', *, *, #326, .F. ) ;
#275 = APPROVAL_PERSON_ORGANIZATION ( #173, #309, #325 ) ;
#276 = MECHANICAL_CONTEXT ( 'NONE', #102, 'mechanical' ) ;
#277 = ADVANCED_FACE ( 'NONE', ( #248 ), #143, .F. ) ;
#278 = ADVANCED_FACE ( 'NONE', ( #273 ), #114, .F. ) ;
#279 = PERSON_AND_ORGANIZATION_ROLE ( 'classification_officer' ) ;
#280 = CALENDAR_DATE ( 2021, 5, 1 ) ;
#281 = EDGE_CURVE ( 'NONE', #150, #47, #158, .T. ) ;
#282 = EDGE_LOOP ( 'NONE', ( #199, #308 ) ) ;
#283 = APPROVAL_STATUS ( 'not_yet_approved' ) ;
#284 = AXIS2_PLACEMENT_3D ( 'NONE', #117, #222, #271 ) ;
#285 = CARTESIAN_POINT ( 'NONE',  ( -3.000000000000000000, 0.000000000000000000, 0.000000000000000000 ) ) ;
#286 = CARTESIAN_POINT ( 'NONE',  ( 0.5000000000000002220, 5.000000000000000000, 0.000000000000000000 ) ) ;
#287 = FACE_BOUND ( 'NONE', #329, .T. ) ;
#288 = CC_DESIGN_PERSON_AND_ORGANIZATION_ASSIGNMENT ( #46, #279, ( #75 ) ) ;
#289 = CARTESIAN_POINT ( 'NONE',  ( 3.000000000000000000, 0.000000000000000000, 0.000000000000000000 ) ) ;
#290 = DIRECTION ( 'NONE',  ( 0.000000000000000000, 0.000000000000000000, 1.000000000000000000 ) ) ;
#291 = DIRECTION ( 'NONE',  ( 0.000000000000000000, 0.000000000000000000, -1.000000000000000000 ) ) ;
#292 = DIRECTION ( 'NONE',  ( 1.000000000000000000, 0.000000000000000000, 0.000000000000000000 ) ) ;
#293 = CARTESIAN_POINT ( 'NONE',  ( -1.614212418857619014, 0.000000000000000000, 5.000000000000000888 ) ) ;
#294 =( NAMED_UNIT ( * ) PLANE_ANGLE_UNIT ( ) SI_UNIT ( $, .RADIAN. ) );
#295 = VERTEX_POINT ( 'NONE', #321 ) ;
#296 = CALENDAR_DATE ( 2021, 5, 1 ) ;
#297 = CIRCLE ( 'NONE', #82, 12.69999999999999929 ) ;
#298 = COORDINATED_UNIVERSAL_TIME_OFFSET ( 8, 0, .AHEAD. ) ;
#299 = EDGE_LOOP ( 'NONE', ( #253, #228, #51, #118 ) ) ;
#300 = VERTEX_POINT ( 'NONE', #11 ) ;
#301 = PERSON_AND_ORGANIZATION_ROLE ( 'creator' ) ;
#302 = ORIENTED_EDGE ( 'NONE', *, *, #96, .F. ) ;
#303 = AXIS2_PLACEMENT_3D ( 'NONE', #242, #313, #86 ) ;
#304 = APPLICATION_CONTEXT ( 'configuration controlled 3d designs of mechanical parts and assemblies' ) ;
#305 = ORIENTED_EDGE ( 'NONE', *, *, #55, .F. ) ;
#306 = ORIENTED_EDGE ( 'NONE', *, *, #226, .F. ) ;
#307 = ORIENTED_EDGE ( 'NONE', *, *, #226, .T. ) ;
#308 = ORIENTED_EDGE ( 'NONE', *, *, #314, .T. ) ;
#309 = APPROVAL ( #146, 'UNSPECIFIED' ) ;
#310 = DIRECTION ( 'NONE',  ( 0.000000000000000000, 0.000000000000000000, 1.000000000000000000 ) ) ;
#311 = CC_DESIGN_APPROVAL ( #261, ( #49 ) ) ;
#312 = DIRECTION ( 'NONE',  ( 0.000000000000000000, 0.000000000000000000, 1.000000000000000000 ) ) ;
#313 = DIRECTION ( 'NONE',  ( 1.000000000000000000, 0.000000000000000000, 0.000000000000000000 ) ) ;
#314 = EDGE_CURVE ( 'NONE', #300, #132, #324, .T. ) ;
#315 = CARTESIAN_POINT ( 'NONE',  ( -1.614212418857619014, 6.123233995736767268E-16, -5.000000000000000888 ) ) ;
#316 = CARTESIAN_POINT ( 'NONE',  ( -1.614212418857619014, 0.000000000000000000, 5.000000000000000888 ) ) ;
#317 = CLOSED_SHELL ( 'NONE', ( #214, #277, #278, #334, #79, #15, #180, #4, #50, #238 ) ) ;
#318 = DIRECTION ( 'NONE',  ( -1.000000000000000000, -0.000000000000000000, -0.000000000000000000 ) ) ;
#319 = DIRECTION ( 'NONE',  ( -1.000000000000000000, -0.000000000000000000, -0.000000000000000000 ) ) ;
#320 = DIRECTION ( 'NONE',  ( 0.000000000000000000, 0.000000000000000000, 1.000000000000000000 ) ) ;
#321 = CARTESIAN_POINT ( 'NONE',  ( 0.5000000000000004441, 6.123233995736766282E-16, -5.000000000000000000 ) ) ;
#322 = DIRECTION ( 'NONE',  ( -1.000000000000000000, 0.000000000000000000, -0.000000000000000000 ) ) ;
#323 = DATE_AND_TIME ( #97, #258 ) ;
#324 = CIRCLE ( 'NONE', #284, 5.000000000000001776 ) ;
#325 = APPROVAL_ROLE ( '' ) ;
#326 = EDGE_CURVE ( 'NONE', #12, #179, #211, .T. ) ;
#327 = SECURITY_CLASSIFICATION_LEVEL ( 'unclassified' ) ;
#328 = PERSON_AND_ORGANIZATION_ROLE ( 'creator' ) ;
#329 = EDGE_LOOP ( 'NONE', ( #200, #145 ) ) ;
#330 = LOCAL_TIME ( 10, 41, 39.00000000000000000, #16 ) ;
#331 = CALENDAR_DATE ( 2021, 5, 1 ) ;
#332 = ORIENTED_EDGE ( 'NONE', *, *, #76, .T. ) ;
#333 = VECTOR ( 'NONE', #85, 1000.000000000000000 ) ;
#334 = ADVANCED_FACE ( 'NONE', ( #196 ), #223, .F. ) ;
#335 = CARTESIAN_POINT ( 'NONE',  ( 3.000000000000000000, 12.69999999999999929, 0.000000000000000000 ) ) ;
ENDSEC;
END-ISO-10303-21;
